MALTrock.biz

:: Malt Diskografi :: => Kendi Adını Taşıyan İlk Albüm => 07.Deprem => Konuyu başlatan: tmngrl1162 - 18 Ağustos 2007, 13:31:33

Başlık: "Deprem" tab
Gönderen: tmngrl1162 - 18 Ağustos 2007, 13:31:33
Deprem
burasi parcanin grisi
----------------I        --------------------I       ---------------------I     )   
----------------I        --------------------I       ---------------------I     )   
----------------I        --------------------I       ---------------------I     )2 kere 
--8----8x-8x-8x-I2kere   --10----10x-10x-10x-I2kere  ----12---12x-12x-12x-I4kere)
--8----8x-8x-8x-I        --10----10x-10x-10x-I       ----12---12x-12x-12x-I     )
--6----6x-6x-6x-I        ---8-----8x--8x--8x-I       ----10---10x-10x-10x-I     )




burasida introdaki solo   

-------------------------------------------------------------------------------------------I
-----3-3-3--3------------------------------------------------------------------------------I
---------------2-2-2--0-2-2-2-3-2-2-2------------------------------------------------------Ix2 -0--------------------------------------3-3-3-3-3-3-3-3-3-3---2-2-2-2-2-2-2-2-2-2--3-2-0-0-I
-------------------------------------------------------------------------------------------I
-------------------------------------------------------------------------------------------I

introdaki solonun arkasında calan yer
---------------------------------------------------------------------I
---------------------------------------------------------------------I
---------------------------------------------------------------------I
--12/8--8-8--8/5--5-5---5/8--8-8---8/12--12-12----8---------5--------I
--12/8--8-8--8/5--5-5---5/8--8-8---8/12--12-12----8-(9kere)-5-(9kere)I
--10/6--6-6--6/3--3-3---3/6--6-6---6/10--10-10----6---------3--------I
Başlık: Ynt: "Deprem" tab
Gönderen: su - 21 Ağustos 2007, 19:41:58
http://www.maltrock.biz/forum/index.php?topic=811.0

 :)
Başlık: Ynt: "Deprem" tab
Gönderen: MetoBoy - 12 Aralık 2008, 10:15:46
1 kısımdışında riff yalnış bu arada introda arkada çalan bişi yok

e-------------------------------------------------------------------------------
B-------------------------------------------------------------------------------
G-------------------------------------------------------------------------------
D-----0---12-12-12---0----------------------------------------------------
A-----------------------------12--12--10---12--13------------------------
E-------------------------------------------------------------------------------