100471 İleti 1642 Konu - Gönderen: 8961 Üye - Son Üye: aragorn

Gönderen Konu: Deprem bass tab.......!!  (Okunma sayısı 4213 defa)

0 Üye ve 1 Ziyaretçi konuyu incelemekte.

Darkruse
  • Yeni Üye
  • *
  • İleti: 1
  • Sallandık diyorum!
  • Popülerlik: 0
Deprem bass tab.......!!
« : 29 Aralık 2007, 16:17:51 »
0
Deprem (Bass Tab)
riff(1) x2  intro
|-------------------------|------------------------|
|-5-0--7-0--5-0--8-0--7-0--5-0--|5-0--7-0--5-0--8-0--7-0--5-0--|
|-------------------------|------------------------|
|-------------------------|------------------------|

|-----------------------------------|---------------|
|-----------------------------------|---------------|
|-----------------------------------|7h8-10--8p7----|
|6-6--6-6-6--6-6--6-6-6--3-3--3-3-3-|------------8--|

 riff(2)  x2  intro
|-------------------------------------------------------|--------------|
|------------------5-7--77------------------------------|--------------|
|3-5--55--5---------------------------------------------|7h8-10--8p7---|
|-----------5--55----------5555--1-1-1-1--1-3-1--0-0-0-0|------------8-|

 riff(3)  x2  sallandık diyorum...
|-----5-6-7-----5-6-7-----5-6-7-----5-6-7-|
|-0-0-------0-0-------0-0-------0-0-------|
|-----------------------------------------|
|-----------------------------------------|

|----7-9-10-----7-9-10-|------9-10-12-------9-10-12-|
|8-8--------8-8--------|10-10---------10-10---------|
|----------------------|----------------------------|
|----------------------|----------------------------|

 riff(4)  tehlikeleri düşündüm önceden...
|-----5-6-7-----5-6-7-----7-9-10-----12-14-15-|
|-0-0-------0-0-------0-0--------0-0----------|
|---------------------------------------------|
|---------------------------------------------|

|----7-9-10-----7-9-10-|------9-10-12-------9-10-12-|
|8-8--------8-8--------|10-10---------10-10---------|
|----------------------|----------------------------|
|----------------------|----------------------------|

|-----5-6-7-----5-6-7-----7-9-10-----12-14-15-|
|-0-0-------0-0-------0-0--------0-0----------|
|---------------------------------------------|
|---------------------------------------------|

|----7-9-10-----7-9-10-|------9-10-12--10h12-12-10h12-12-|
|8-8--------8-8--------|10-10----------------------------|
|----------------------|---------------------------------|
|----------------------|---------------------------------|

 riff(5)  nakarat
|-5h7-7-777-5h7-7-777-5h7-7-777-5h7-5-----|
|-------------------------------------875-|
|-----------------------------------------|
|-----------------------------------------|

|---------------------------------------------------|
|---------------------------------------------------|
|-8-8--8-8--8-8--8-8---10-10-10-10--8h10-10-8h10-10-|
|---------------------------------------------------|

|-5h7-7-777-5h7-7-777-5h7-7-777-5h7-5-----|
|-------------------------------------875-|
|-----------------------------------------|
|-----------------------------------------|

|---------------------------|---------------|
|---------------------------|---------------|
|---------------------------|-7h8-10--8p7---|
|-6-6--6-6--6-8-6--3-3--3-3-|-------------8-|

 riff(6)  geçiş
|------10-9----------10-9----------10-9-----------------|
|12-12------9--12-12------9--12-12------9--12-12--------|
|------------------------------------------------12\5-|
|-------------------------------------------------------|

 tekrar:riff(3) , riff(4) , (riff(5)x2)

 riff(7)  geçiş
|--------------------------------------------------------|
|--------------------------------------------------------|
|-5-5-5-5-4-4-4-4-3-3--3-2--2---5-5-5-5-4-4-4-4-3-3--3-2-|
|--------------------------------------------------------|

|-----------------------------------------|
|-----------------------------------------|
|-5-5--5-5--7-7--7-7--8-8-8--10-10-10-dur-|
|-------5---------8-----------------------|

|------789--|...
|--0-0------|...
|-----------|...
|-----------|...
Çalarken zewk weren parça listenize ekleyin korkmadan :) Nede olsa Malt şarkısı !! ;) ::)
Çatlak olabilirim belki, hafiften
Sallanıyorsam işte bu yüzden !