MALTrock.biz

:: Malt Diskografi :: => Kendi Adını Taşıyan İlk Albüm => 07.Deprem => Konuyu başlatan: mstkytn - 04 Temmuz 2007, 04:06:29

Başlık: Malt - Deprem Tablarııı (†ablarım gaymakk!)
Gönderen: mstkytn - 04 Temmuz 2007, 04:06:29
                                                     Malt - Deprem
         biraz ince oldu Transpoze edip E 'den de yazıcam kolay gelsin ;) ...
D ----------------------------------------------------------------------------------------------------------------------------
A -8-8-8-8-8-8-8-8-8-8-10-10-10-10-10-10-10-10-10-10-12-12-12-12-12-12-12-12-12-12------
E -6-6-6-6-6-6-6-6-6-6--8---8---8---8---8--8---8---8---8--8--10-10-10-10-10-10-10-10-10-10------

D ----------------------------------------------------------------------------------------------------------------------------
A -12-12-12-12-12-12-12-12-12-12-------------------------------------------------------------------------------
E -10-10-10-10-10-10-10-10-10-10-------------------------------------------------------------------------------

D ----------------------------------------------------------------------------------------------------------------------------
A -8-8-8-8-8-8-8-8-8-8-10-10-10-10-10-10-10-10-10-10-12-----------------------------------------------
E -6-6-6-6-6-6-6-6-6-6--8---8---8---8---8--8---8---8---8--8--10-----------------------------------------------

D -12-12-12---------------------------------------------------------------------------------------------------------------
A --------------13--12--12--10--12--12--12--13--12--12---8-8-8-8-8-8-8-8-8-8-7-7-7-7-7-7-7-7-7-7-
E ----------------------------------------------------------------------6-6-6-6-6-6-6-6-6-6-5-5-5-5-5-5-5-5-5-5-

D -12-12-12---------------------------------------------------------------------------------------------------------------
A --------------13--12--12--10--12--12--12--13--12--12---8-8-8-8-8-8-8-8-8-8-7-7-7-7-7-7-7-7-7-7-
E ----------------------------------------------------------------------6-6-6-6-6-6-6-6-6-6-5-5-5-5-5-5-5-5-5-5-

                 Burada Sözler Giriyor
 Sallandık diyorum...Gitar böyle bir solo atıyor     
D -(-12-12-------------------)---(-8-8--------------)---(-10-10-----------------)-----------------------------------
A -(---------10-h-12-p-10-)---(------6-h-8-p-6-)---(----------8-h-10-p-8-)-----------------------------------
E -(----------------------------)---(--------------------)---(--------------------------)-----------------------------------
              4 defa                      2 defa                   2 defa
       
                 Burada Nakarat Giriyor
 Hayatıma asma bir kat...
Bass'lar bunu yapıyor burda
D --12--12--12--12/19--19--19\12------------------------------------------------8-10-12---------------------
(parantez arasındaki kısım tekraralanıyor bitişte diğer ksım)
Gitarlar (yani gitar :)) da bunu yapıyor ..
D ---------------------------------------------------------------------------------------------------------------------------
A -12-----8-----10-------------------------------------------------------------------------------------------------------
E -10-----6------8--------------------------------------------------------------------------------------------------------
   (bu dönemeç 2 defa tekrarlanıyor vuruş sayısını da ritme göre kendiniz ayarlarsınız)

Sonra tekrar 'Söz' kısmı çalınıyor
Ondan sonra da tekrar 'Nakarat'
Nakarat'tan "kriz masası" kısmına girerken şöyle birşey yapılıyor
G ------------------------------------------------------------19------------------------------------------------------------
D ---------------------------------------------------------------------------------------------------------------------------
A -12-11-10-9-----12-11-10-9-----12-14-15-17-----------------------------------------------------------------
E -10--9---8--7-----10--9---8-7-----10-12-13-15-----------------------------------------------------------------

Kriz masasında beklerken ...
D ---------------------------------------------------------------------------------------------------------------------------
A -12-8-10---------------------------------------------------------------------------------------------------------------
E -10-6--8----------------------------------------------------------------------------------------------------------------
 (bunu 4 defa çalıyoruz )
Sonra tekrar "Nakarat"
Kriz masası kısmı ve son olarak da

D -12-12-12---------------------------------------------------------------------------------------------------------------
A --------------13--12--12--10--12--12--12--13--12--12---8-8-8-8-8-8-8-8-8-8-7-7-7-7-7-7-7-7-7-7-
E ----------------------------------------------------------------------6-6-6-6-6-6-6-6-6-6-5-5-5-5-5-5-5-5-5-5-

D -12-12-12---------------------------------------------------------------------------------------------------------------
A --------------13--12--12--10--12--12--12--13--12--12---8--7-------------------------------------------------
E ----------------------------------------------------------------------6--5-------------------------------------------------

h - hammer on: Bir tele vurduktan sonra başka diğerbir perdeye basmak.
Örneğin; e--2h3-- 2. perde basılıyken tele vurup sonra 3. perdeye basmak.

p - pull off: Bir tele vurduktan sonra sol elini telden çekmek. h 'nin tam tersi.
Örneğin; e--3p2-- 3. Perdede tele vurup sonra 2. perdeye basmak.

/ - slide up: Bir telden başka bir tele kayma olayı.
Örneğin; e--3/5-- 3. perdede tele vurup parmağı 5. perdeye kaydırmak.

\ - slide down: Üst telden aşağı kaymak. /'in tam tersi
Örneğin; e--5\3-- 5. perdede tele vurup sonra 3. perdeye kaydırmak.

İnternette hiçbir sitede bulamadım (Hatta üzülerek söyleyeceğim forumda da) elimden geldiği kadarıyla bunu çıkartıp gecenin bu saatinde uyumayıp yazdım(küçük emrah gibi oldu biraz ama  :) ) hatalı gördüğünüz veya anlatamadığım bir yer olursa benimle iletişime geçerseniz yardımcı olurum.
Başlık: Ynt: Malt - Deprem Tablarııı (†ablarım gaymakk!)
Gönderen: moraal - 15 Temmuz 2007, 01:12:56
bunu guitar proya yazıcam ama bassLa bateriyi yazamıyorum gıcık oLdum=)
Başlık: Ynt: Malt - Deprem Tablarııı (†ablarım gaymakk!)
Gönderen: agmedcaliskan - 26 Ağustos 2007, 03:16:03
abi yanlış olan tabları yazmayın yaa
Başlık: Ynt: Malt - Deprem Tablarııı (†ablarım gaymakk!)
Gönderen: mstkytn - 08 Eylül 2007, 19:13:03
abi sen çalamıosan yanlış mı oluo
Başlık: Ynt: Malt - Deprem Tablarııı (†ablarım gaymakk!)
Gönderen: Rockimsi - 24 Kasım 2007, 16:06:13
aşırı kolay bir parça bu, bence tabla falan kafanızı karıştırmayın..