MALTrock.biz

:: Malt Diskografi :: => Kendi Adını Taşıyan İlk Albüm => 08.Gezegen => Konuyu başlatan: tmngrl1162 - 18 Ağustos 2007, 13:35:04

Başlık: "Gezegen" akorlar
Gönderen: tmngrl1162 - 18 Ağustos 2007, 13:35:04
Gezegen
e-------------------------------------------------------------------
B-------------------------------------------------------------------
G-------------------------------------------------------------------
D-------------------------------------------------------------------
A-10-10-10-10-10--10----10--10-----------6-6-6-6--10-10-10-10-10----
E---8--8--8--8--8---8-----11--11-10-8-7-8-8-8-8-8---8--8--8--8--8---

ŞARKININ A VE B KISMINDA YUKARDAKİ TAB ÇALINIYOR


ÇALIN OYNUYUM GÖNDERİN GELSİN         >
                  >         
ACILAR SARHOŞ OLMUŞ AKIL NEYLESİN      >
                  >
KİMSE GİT DEMESİN BEN BURDA KALIYIM      >  A
                  >
KAPATMAYIN BİRAZ DAHA EĞLENEYİM         >
                  >
DÜŞÜNE KADAR BU KARANLIKTA DÖN DÖNNN      >

Fm Em         Dm#       Dm 
DÖÖNDÜM DÖNÜYORUM DUR DURAK BİLMEDEN      >
Fm Em          Dm#       Dm       >
YOORGUN YÖRÜNGENDE HERZAMAN YALNIZ GEZEN BEN   > NAKARAT
Dm#       Dm         Cm         >   
DURMADAN YALNIZ DÖNEN GEZEGEN         >


ÇAĞIRIN GELSİN SÖYLEYİN DÖNSÜN         >   
                  >
BEN ÇIKMAM GELSİN O GÖTÜRSÜN         >
                  >
BİTTİ İŞTE Bİ FİLM GİBİ            >  B
                  >
AMA HİÇ SONU YOK BUNUNH SANKİ         >   
                  >
UZAYIN KARANLIĞINDA Bİ TEK BEN VARIM ŞİMDİ   >


ARA SOLO :

e---------------------------------------------------------------
B---------------------------------------------------------------
G-----------------------------3P2-2-3P2-2--2h3-3h5-5h7-7h9------
D--3P2-2--3P2-2--3P2-2-3P2-2-----5-----5------------------------  2 KERE TEKRAR
A-----5------5------5-----5-------------------------------------
E---------------------------------------------------------------

2 TEKRARDAN SONRA


e----------------------------------------------------------------------------------
B----------------------------------------------------------------------------------
G--------------------------------------------------17p15/14------------------------
D-12/10h12-14--12h14-15/17V/21--19-19/17-15-17p15----------17p15-17p15/14h15p14/12-
A----------------------------------------------------------------------------------
E----------------------------------------------------------------------------------

Aşağıdaki tablarda en son çalan hızlı solo ;)

e---------------------------------------------------------------
B-------------21p19p17--23p21p19--------------------------------
G--21p19p17-----------------------------------------------------
D---------------------------------------------------------------
A---------------------------------------------------------------
E---------------------------------------------------------------
Başlık: Ynt: "Gezegen" akorlar
Gönderen: bassist-TR - 20 Eylül 2009, 13:41:13
yaw bana bass tabları lazım nerden bulabilirim ?